ISO-10303-21;
HEADER;
FILE_DESCRIPTION (( 'STEP AP203' ),
    '1' );
FILE_NAME ('BK7-BPBSC-25.4-900-1200.STEP',
    '2021-01-05T02:11:29',
    ( '' ),
    ( '' ),
    'SwSTEP 2.0',
    'SolidWorks 2020',
    '' );
FILE_SCHEMA (( 'CONFIG_CONTROL_DESIGN' ));
ENDSEC;

DATA;
#1 = COORDINATED_UNIVERSAL_TIME_OFFSET ( 8, 0, .AHEAD. ) ;
#2 = FACE_OUTER_BOUND ( 'NONE', #265, .T. ) ;
#3 = PLANE ( 'NONE',  #61 ) ;
#4 = CARTESIAN_POINT ( 'NONE',  ( -12.69999999999999574, -12.69999999999999396, -12.69999999999999929 ) ) ;
#5 = CLOSED_SHELL ( 'NONE', ( #62, #80, #253, #97, #180 ) ) ;
#6 = CC_DESIGN_APPROVAL ( #75, ( #241 ) ) ;
#7 = EDGE_LOOP ( 'NONE', ( #219, #139, #105 ) ) ;
#8 = DIRECTION ( 'NONE',  ( 0.000000000000000000, 0.000000000000000000, 1.000000000000000000 ) ) ;
#9 = ORIENTED_EDGE ( 'NONE', *, *, #267, .T. ) ;
#10 = EDGE_LOOP ( 'NONE', ( #93, #274, #98, #208 ) ) ;
#11 = APPROVAL_STATUS ( 'not_yet_approved' ) ;
#12 = ORIENTED_EDGE ( 'NONE', *, *, #135, .T. ) ;
#13 = VECTOR ( 'NONE', #142, 1000.000000000000000 ) ;
#14 = APPROVAL_DATE_TIME ( #238, #75 ) ;
#15 = ORIENTED_EDGE ( 'NONE', *, *, #267, .F. ) ;
#16 = DIRECTION ( 'NONE',  ( -0.7071067811865474617, -0.7071067811865474617, 0.000000000000000000 ) ) ;
#17 = CARTESIAN_POINT ( 'NONE',  ( -12.69999999999999751, -12.69999999999999929, 12.69999999999999929 ) ) ;
#18 = AXIS2_PLACEMENT_3D ( 'NONE', #220, #289, #64 ) ;
#19 = ORIENTED_EDGE ( 'NONE', *, *, #26, .F. ) ;
#20 = PERSON_AND_ORGANIZATION_ROLE ( 'classification_officer' ) ;
#21 = DIRECTION ( 'NONE',  ( 1.000000000000000000, -2.220446049250312588E-16, 0.000000000000000000 ) ) ;
#22 = CC_DESIGN_DATE_AND_TIME_ASSIGNMENT ( #149, #271, ( #241 ) ) ;
#23 = DIRECTION ( 'NONE',  ( 0.000000000000000000, 0.000000000000000000, 1.000000000000000000 ) ) ;
#24 = APPLICATION_CONTEXT ( 'configuration controlled 3d designs of mechanical parts and assemblies' ) ;
#25 = CARTESIAN_POINT ( 'NONE',  ( -12.69999999999999751, -12.69999999999999929, -12.69999999999999929 ) ) ;
#26 = EDGE_CURVE ( 'NONE', #245, #57, #38, .T. ) ;
#27 = CARTESIAN_POINT ( 'NONE',  ( 12.69999999999999574, 12.69999999999999574, 12.69999999999999929 ) ) ;
#28 = CARTESIAN_POINT ( 'NONE',  ( 12.69999999999999574, 12.69999999999999574, -12.69999999999999929 ) ) ;
#29 = PRODUCT_DEFINITION_FORMATION_WITH_SPECIFIED_SOURCE ( 'ANY', '', #221, .NOT_KNOWN. ) ;
#30 = DIRECTION ( 'NONE',  ( -0.7071067811865475727, -0.7071067811865475727, 0.000000000000000000 ) ) ;
#31 = ORIENTED_EDGE ( 'NONE', *, *, #96, .F. ) ;
#32 = ORIENTED_EDGE ( 'NONE', *, *, #108, .T. ) ;
#33 = APPROVAL_ROLE ( '' ) ;
#34 = ORIENTED_EDGE ( 'NONE', *, *, #121, .T. ) ;
#35 = AXIS2_PLACEMENT_3D ( 'NONE', #263, #124, #210 ) ;
#36 = PERSON_AND_ORGANIZATION ( #88, #52 ) ;
#37 = CC_DESIGN_PERSON_AND_ORGANIZATION_ASSIGNMENT ( #94, #235, ( #221 ) ) ;
#38 = LINE ( 'NONE', #40, #81 ) ;
#39 = COORDINATED_UNIVERSAL_TIME_OFFSET ( 8, 0, .AHEAD. ) ;
#40 = CARTESIAN_POINT ( 'NONE',  ( 12.69999999999999929, -12.69999999999999929, 12.69999999999999929 ) ) ;
#41 = EDGE_CURVE ( 'NONE', #230, #58, #196, .T. ) ;
#42 = CARTESIAN_POINT ( 'NONE',  ( 12.69999999999999574, 12.69999999999999574, 12.69999999999999929 ) ) ;
#43 = VECTOR ( 'NONE', #225, 999.9999999999998863 ) ;
#44 = DIRECTION ( 'NONE',  ( 0.000000000000000000, 0.000000000000000000, 1.000000000000000000 ) ) ;
#45 = APPROVAL_ROLE ( '' ) ;
#46 = PLANE ( 'NONE',  #218 ) ;
#47 = APPROVAL_DATE_TIME ( #293, #205 ) ;
#48 = CC_DESIGN_APPROVAL ( #116, ( #56 ) ) ;
#49 = DIRECTION ( 'NONE',  ( 0.000000000000000000, 0.000000000000000000, 1.000000000000000000 ) ) ;
#50 = DIRECTION ( 'NONE',  ( 1.000000000000000000, 0.000000000000000000, 0.000000000000000000 ) ) ;
#51 = EDGE_CURVE ( 'NONE', #58, #245, #153, .T. ) ;
#52 = ORGANIZATION ( 'UNSPECIFIED', 'UNSPECIFIED', '' ) ;
#53 = ORIENTED_EDGE ( 'NONE', *, *, #157, .F. ) ;
#54 = ORIENTED_EDGE ( 'NONE', *, *, #310, .F. ) ;
#55 = DIRECTION ( 'NONE',  ( -0.000000000000000000, -0.000000000000000000, -1.000000000000000000 ) ) ;
#56 = SECURITY_CLASSIFICATION ( '', '', #224 ) ;
#57 = VERTEX_POINT ( 'NONE', #295 ) ;
#58 = VERTEX_POINT ( 'NONE', #128 ) ;
#59 = ADVANCED_FACE ( 'NONE', ( #292 ), #148, .F. ) ;
#60 = CARTESIAN_POINT ( 'NONE',  ( -12.70000000000000284, 12.70000000000000284, 12.69999999999999929 ) ) ;
#61 = AXIS2_PLACEMENT_3D ( 'NONE', #303, #49, #85 ) ;
#62 = ADVANCED_FACE ( 'NONE', ( #126 ), #125, .F. ) ;
#63 = FACE_OUTER_BOUND ( 'NONE', #7, .T. ) ;
#64 = DIRECTION ( 'NONE',  ( 1.000000000000000000, 0.000000000000000000, 0.000000000000000000 ) ) ;
#65 = LOCAL_TIME ( 10, 11, 29.00000000000000000, #193 ) ;
#66 =( NAMED_UNIT ( * ) PLANE_ANGLE_UNIT ( ) SI_UNIT ( $, .RADIAN. ) );
#67 = DIRECTION ( 'NONE',  ( -2.220446049250312588E-16, 1.000000000000000000, 0.000000000000000000 ) ) ;
#68 =( LENGTH_UNIT ( ) NAMED_UNIT ( * ) SI_UNIT ( .MILLI., .METRE. ) );
#69 = DIRECTION ( 'NONE',  ( 0.7071067811865475727, 0.7071067811865475727, 0.000000000000000000 ) ) ;
#70 = MANIFOLD_SOLID_BREP ( 'Í¹Ì¨-À', #201 ) ;
#71 = CALENDAR_DATE ( 2021, 5, 1 ) ;
#72 = PRODUCT_RELATED_PRODUCT_CATEGORY ( 'detail', '', ( #221 ) ) ;
#73 = MANIFOLD_SOLID_BREP ( '¾µÏ', #5 ) ;
#74 = FACE_OUTER_BOUND ( 'NONE', #244, .T. ) ;
#75 = APPROVAL ( #11, 'UNSPECIFIED' ) ;
#76 = CALENDAR_DATE ( 2021, 5, 1 ) ;
#77 = CARTESIAN_POINT ( 'NONE',  ( 12.69999999999999929, 12.69999999999999929, 12.69999999999999929 ) ) ;
#78 = DATE_TIME_ROLE ( 'classification_date' ) ;
#79 = CARTESIAN_POINT ( 'NONE',  ( 12.69999999999999929, 12.69999999999999929, 12.69999999999999929 ) ) ;
#80 = ADVANCED_FACE ( 'NONE', ( #270 ), #120, .F. ) ;
#81 = VECTOR ( 'NONE', #296, 1000.000000000000000 ) ;
#82 = FACE_OUTER_BOUND ( 'NONE', #146, .T. ) ;
#83 = CARTESIAN_POINT ( 'NONE',  ( 12.69999999999999929, -12.69999999999999929, 12.69999999999999929 ) ) ;
#84 = EDGE_CURVE ( 'NONE', #314, #232, #190, .T. ) ;
#85 = DIRECTION ( 'NONE',  ( -2.220446049250312588E-16, 1.000000000000000000, 0.000000000000000000 ) ) ;
#86 = CC_DESIGN_PERSON_AND_ORGANIZATION_ASSIGNMENT ( #216, #316, ( #241 ) ) ;
#87 = VECTOR ( 'NONE', #21, 1000.000000000000000 ) ;
#88 = PERSON ( 'UNSPECIFIED', 'UNSPECIFIED', 'UNSPECIFIED', ('UNSPECIFIED'), ('UNSPECIFIED'), ('UNSPECIFIED') ) ;
#89 = ORIENTED_EDGE ( 'NONE', *, *, #280, .T. ) ;
#90 = CARTESIAN_POINT ( 'NONE',  ( 12.69999999999999929, 12.69999999999999929, -12.69999999999999929 ) ) ;
#91 = VECTOR ( 'NONE', #284, 1000.000000000000000 ) ;
#92 = ADVANCED_FACE ( 'NONE', ( #74 ), #317, .F. ) ;
#93 = ORIENTED_EDGE ( 'NONE', *, *, #185, .F. ) ;
#94 = PERSON_AND_ORGANIZATION ( #88, #52 ) ;
#95 = CARTESIAN_POINT ( 'NONE',  ( 12.69999999999999929, 12.69999999999999929, -12.69999999999999929 ) ) ;
#96 = EDGE_CURVE ( 'NONE', #236, #314, #273, .T. ) ;
#97 = ADVANCED_FACE ( 'NONE', ( #107 ), #123, .T. ) ;
#98 = ORIENTED_EDGE ( 'NONE', *, *, #96, .T. ) ;
#99 = CC_DESIGN_PERSON_AND_ORGANIZATION_ASSIGNMENT ( #127, #154, ( #29 ) ) ;
#100 = DIRECTION ( 'NONE',  ( 0.000000000000000000, 0.000000000000000000, -1.000000000000000000 ) ) ;
#101 = ORIENTED_EDGE ( 'NONE', *, *, #103, .F. ) ;
#102 = EDGE_CURVE ( 'NONE', #58, #240, #268, .T. ) ;
#103 = EDGE_CURVE ( 'NONE', #240, #57, #202, .T. ) ;
#104 = PLANE ( 'NONE',  #35 ) ;
#105 = ORIENTED_EDGE ( 'NONE', *, *, #213, .T. ) ;
#106 =( NAMED_UNIT ( * ) SI_UNIT ( $, .STERADIAN. ) SOLID_ANGLE_UNIT ( ) );
#107 = FACE_OUTER_BOUND ( 'NONE', #287, .T. ) ;
#108 = EDGE_CURVE ( 'NONE', #315, #281, #160, .T. ) ;
#109 = APPROVAL_STATUS ( 'not_yet_approved' ) ;
#110 = ORIENTED_EDGE ( 'NONE', *, *, #185, .T. ) ;
#111 = DATE_AND_TIME ( #318, #304 ) ;
#112 = CARTESIAN_POINT ( 'NONE',  ( 12.69999999999999574, 12.69999999999999574, 12.69999999999999929 ) ) ;
#113 = AXIS2_PLACEMENT_3D ( 'NONE', #191, #44, #67 ) ;
#114 = DIRECTION ( 'NONE',  ( -0.000000000000000000, 1.000000000000000000, -0.000000000000000000 ) ) ;
#115 = CARTESIAN_POINT ( 'NONE',  ( 12.69999999999999929, 12.69999999999999929, 12.69999999999999929 ) ) ;
#116 = APPROVAL ( #109, 'UNSPECIFIED' ) ;
#117 = CARTESIAN_POINT ( 'NONE',  ( 12.69999999999999929, 12.69999999999999929, 12.69999999999999929 ) ) ;
#118 = ORIENTED_EDGE ( 'NONE', *, *, #108, .F. ) ;
#119 = COORDINATED_UNIVERSAL_TIME_OFFSET ( 8, 0, .AHEAD. ) ;
#120 = PLANE ( 'NONE',  #234 ) ;
#121 = EDGE_CURVE ( 'NONE', #232, #281, #155, .T. ) ;
#122 = AXIS2_PLACEMENT_3D ( 'NONE', #248, #179, #69 ) ;
#123 = PLANE ( 'NONE',  #113 ) ;
#124 = DIRECTION ( 'NONE',  ( -0.000000000000000000, 0.000000000000000000, 1.000000000000000000 ) ) ;
#125 = PLANE ( 'NONE',  #122 ) ;
#126 = FACE_OUTER_BOUND ( 'NONE', #285, .T. ) ;
#127 = PERSON_AND_ORGANIZATION ( #88, #52 ) ;
#128 = CARTESIAN_POINT ( 'NONE',  ( -12.69999999999999751, -12.69999999999999929, 12.69999999999999929 ) ) ;
#129 = FACE_OUTER_BOUND ( 'NONE', #211, .T. ) ;
#130 = DATE_AND_TIME ( #71, #65 ) ;
#131 = DIRECTION ( 'NONE',  ( 0.000000000000000000, 0.000000000000000000, 1.000000000000000000 ) ) ;
#132 = DIRECTION ( 'NONE',  ( -1.000000000000000000, 0.000000000000000000, 0.000000000000000000 ) ) ;
#133 = VECTOR ( 'NONE', #55, 1000.000000000000000 ) ;
#134 = DIRECTION ( 'NONE',  ( 0.000000000000000000, 0.000000000000000000, -1.000000000000000000 ) ) ;
#135 = EDGE_CURVE ( 'NONE', #236, #150, #277, .T. ) ;
#136 = ORIENTED_EDGE ( 'NONE', *, *, #102, .T. ) ;
#137 = DIRECTION ( 'NONE',  ( 0.000000000000000000, -0.000000000000000000, 1.000000000000000000 ) ) ;
#138 = AXIS2_PLACEMENT_3D ( 'NONE', #79, #132, #131 ) ;
#139 = ORIENTED_EDGE ( 'NONE', *, *, #51, .T. ) ;
#140 = DIRECTION ( 'NONE',  ( 0.000000000000000000, 0.000000000000000000, 1.000000000000000000 ) ) ;
#141 = ORIENTED_EDGE ( 'NONE', *, *, #280, .F. ) ;
#142 = DIRECTION ( 'NONE',  ( -0.000000000000000000, 1.000000000000000000, -0.000000000000000000 ) ) ;
#143 = VECTOR ( 'NONE', #302, 1000.000000000000000 ) ;
#144 = CALENDAR_DATE ( 2021, 5, 1 ) ;
#145 = ORIENTED_EDGE ( 'NONE', *, *, #51, .F. ) ;
#146 = EDGE_LOOP ( 'NONE', ( #309, #53, #283, #163 ) ) ;
#147 = LINE ( 'NONE', #95, #229 ) ;
#148 = PLANE ( 'NONE',  #226 ) ;
#149 = DATE_AND_TIME ( #76, #178 ) ;
#150 = VERTEX_POINT ( 'NONE', #227 ) ;
#151 = CARTESIAN_POINT ( 'NONE',  ( -12.69999999999999574, -12.69999999999999396, 12.69999999999999929 ) ) ;
#152 = PERSON_AND_ORGANIZATION ( #88, #52 ) ;
#153 = LINE ( 'NONE', #17, #259 ) ;
#154 = PERSON_AND_ORGANIZATION_ROLE ( 'creator' ) ;
#155 = LINE ( 'NONE', #112, #307 ) ;
#156 = AXIS2_PLACEMENT_3D ( 'NONE', #171, #140, #313 ) ;
#157 = EDGE_CURVE ( 'NONE', #230, #164, #228, .T. ) ;
#158 = FACE_OUTER_BOUND ( 'NONE', #233, .T. ) ;
#159 = UNCERTAINTY_MEASURE_WITH_UNIT (LENGTH_MEASURE( 1.000000000000000082E-05 ), #68, 'distance_accuracy_value', 'NONE');
#160 = LINE ( 'NONE', #209, #91 ) ;
#161 = LINE ( 'NONE', #200, #203 ) ;
#162 = APPROVAL_PERSON_ORGANIZATION ( #249, #205, #45 ) ;
#163 = ORIENTED_EDGE ( 'NONE', *, *, #26, .T. ) ;
#164 = VERTEX_POINT ( 'NONE', #90 ) ;
#165 = ORIENTED_EDGE ( 'NONE', *, *, #41, .F. ) ;
#166 = LINE ( 'NONE', #189, #13 ) ;
#167 = MECHANICAL_CONTEXT ( 'NONE', #212, 'mechanical' ) ;
#168 = VECTOR ( 'NONE', #173, 1000.000000000000000 ) ;
#169 = DESIGN_CONTEXT ( 'detailed design', #24, 'design' ) ;
#170 = ORIENTED_EDGE ( 'NONE', *, *, #102, .F. ) ;
#171 = CARTESIAN_POINT ( 'NONE',  ( 0.000000000000000000, 0.000000000000000000, 0.000000000000000000 ) ) ;
#172 = CC_DESIGN_SECURITY_CLASSIFICATION ( #56, ( #29 ) ) ;
#173 = DIRECTION ( 'NONE',  ( -2.220446049250312588E-16, 1.000000000000000000, 0.000000000000000000 ) ) ;
#174 = APPLICATION_PROTOCOL_DEFINITION ( 'international standard', 'config_control_design', 1994, #212 ) ;
#175 = CARTESIAN_POINT ( 'NONE',  ( 12.69999999999999929, 12.69999999999999929, 12.69999999999999929 ) ) ;
#176 = CARTESIAN_POINT ( 'NONE',  ( -12.69999999999999574, -12.69999999999999396, 12.69999999999999929 ) ) ;
#177 = DIRECTION ( 'NONE',  ( 0.7071067811865475727, -0.7071067811865475727, 0.000000000000000000 ) ) ;
#178 = LOCAL_TIME ( 10, 11, 29.00000000000000000, #39 ) ;
#179 = DIRECTION ( 'NONE',  ( -0.7071067811865475727, 0.7071067811865475727, 0.000000000000000000 ) ) ;
#180 = ADVANCED_FACE ( 'NONE', ( #129 ), #3, .F. ) ;
#181 = CARTESIAN_POINT ( 'NONE',  ( 12.69999999999999574, 12.69999999999999574, -12.69999999999999929 ) ) ;
#182 = PLANE ( 'NONE',  #138 ) ;
#183 = LINE ( 'NONE', #181, #261 ) ;
#184 = CARTESIAN_POINT ( 'NONE',  ( -12.69999999999999751, -12.69999999999999929, 12.69999999999999929 ) ) ;
#185 = EDGE_CURVE ( 'NONE', #150, #315, #187, .T. ) ;
#186 = AXIS2_PLACEMENT_3D ( 'NONE', #256, #306, #137 ) ;
#187 = LINE ( 'NONE', #4, #247 ) ;
#188 = EDGE_LOOP ( 'NONE', ( #321, #170, #165, #319 ) ) ;
#189 = CARTESIAN_POINT ( 'NONE',  ( 12.69999999999999929, 12.69999999999999929, -12.69999999999999929 ) ) ;
#190 = LINE ( 'NONE', #42, #87 ) ;
#191 = CARTESIAN_POINT ( 'NONE',  ( 0.000000000000000000, 0.000000000000000000, 12.69999999999999929 ) ) ;
#192 = CARTESIAN_POINT ( 'NONE',  ( -12.70000000000000284, 12.70000000000000284, -12.69999999999999929 ) ) ;
#193 = COORDINATED_UNIVERSAL_TIME_OFFSET ( 8, 0, .AHEAD. ) ;
#194 = DIRECTION ( 'NONE',  ( -0.7071067811865474617, -0.7071067811865474617, 0.000000000000000000 ) ) ;
#195 = SHAPE_DEFINITION_REPRESENTATION ( #299, #305 ) ;
#196 = LINE ( 'NONE', #175, #242 ) ;
#197 = APPROVAL_STATUS ( 'not_yet_approved' ) ;
#198 = CARTESIAN_POINT ( 'NONE',  ( -12.69999999999999574, -12.69999999999999396, 12.69999999999999929 ) ) ;
#199 = APPROVAL_DATE_TIME ( #111, #116 ) ;
#200 = CARTESIAN_POINT ( 'NONE',  ( 12.69999999999999929, 12.69999999999999929, 12.69999999999999929 ) ) ;
#201 = CLOSED_SHELL ( 'NONE', ( #59, #291, #262, #301, #92 ) ) ;
#202 = LINE ( 'NONE', #25, #282 ) ;
#203 = VECTOR ( 'NONE', #114, 1000.000000000000000 ) ;
#204 = DIRECTION ( 'NONE',  ( 2.220446049250312588E-16, -1.000000000000000000, 0.000000000000000000 ) ) ;
#205 = APPROVAL ( #197, 'UNSPECIFIED' ) ;
#206 = ORIENTED_EDGE ( 'NONE', *, *, #297, .F. ) ;
#207 =( GEOMETRIC_REPRESENTATION_CONTEXT ( 3 ) GLOBAL_UNCERTAINTY_ASSIGNED_CONTEXT ( ( #159 ) ) GLOBAL_UNIT_ASSIGNED_CONTEXT ( ( #68, #66, #106 ) ) REPRESENTATION_CONTEXT ( 'NONE', 'WORKASPACE' ) );
#208 = ORIENTED_EDGE ( 'NONE', *, *, #294, .T. ) ;
#209 = CARTESIAN_POINT ( 'NONE',  ( 12.69999999999999574, 12.69999999999999574, -12.69999999999999929 ) ) ;
#210 = DIRECTION ( 'NONE',  ( 1.000000000000000000, 0.000000000000000000, 0.000000000000000000 ) ) ;
#211 = EDGE_LOOP ( 'NONE', ( #9, #110, #32 ) ) ;
#212 = APPLICATION_CONTEXT ( 'configuration controlled 3d designs of mechanical parts and assemblies' ) ;
#213 = EDGE_CURVE ( 'NONE', #245, #230, #161, .T. ) ;
#214 = APPLICATION_PROTOCOL_DEFINITION ( 'international standard', 'config_control_design', 1994, #24 ) ;
#215 = ORIENTED_EDGE ( 'NONE', *, *, #84, .F. ) ;
#216 = PERSON_AND_ORGANIZATION ( #88, #52 ) ;
#217 = DIRECTION ( 'NONE',  ( 1.000000000000000000, -2.220446049250312588E-16, 0.000000000000000000 ) ) ;
#218 = AXIS2_PLACEMENT_3D ( 'NONE', #250, #204, #8 ) ;
#219 = ORIENTED_EDGE ( 'NONE', *, *, #41, .T. ) ;
#220 = CARTESIAN_POINT ( 'NONE',  ( 0.000000000000000000, 0.000000000000000000, -12.69999999999999929 ) ) ;
#221 = PRODUCT ( 'BK7-BPBSC-25.4-900-1200', 'BK7-BPBSC-25.4-900-1200', '', ( #167 ) ) ;
#222 = DIRECTION ( 'NONE',  ( -2.220446049250312588E-16, 1.000000000000000000, 0.000000000000000000 ) ) ;
#223 = LOCAL_TIME ( 10, 11, 29.00000000000000000, #119 ) ;
#224 = SECURITY_CLASSIFICATION_LEVEL ( 'unclassified' ) ;
#225 = DIRECTION ( 'NONE',  ( -0.7071067811865475727, -0.7071067811865475727, 0.000000000000000000 ) ) ;
#226 = AXIS2_PLACEMENT_3D ( 'NONE', #77, #177, #266 ) ;
#227 = CARTESIAN_POINT ( 'NONE',  ( -12.69999999999999574, -12.69999999999999396, -12.69999999999999929 ) ) ;
#228 = LINE ( 'NONE', #115, #133 ) ;
#229 = VECTOR ( 'NONE', #16, 1000.000000000000114 ) ;
#230 = VERTEX_POINT ( 'NONE', #117 ) ;
#231 = LINE ( 'NONE', #311, #286 ) ;
#232 = VERTEX_POINT ( 'NONE', #260 ) ;
#233 = EDGE_LOOP ( 'NONE', ( #118, #258, #312, #34 ) ) ;
#234 = AXIS2_PLACEMENT_3D ( 'NONE', #176, #217, #23 ) ;
#235 = PERSON_AND_ORGANIZATION_ROLE ( 'design_owner' ) ;
#236 = VERTEX_POINT ( 'NONE', #198 ) ;
#237 = LOCAL_TIME ( 10, 11, 29.00000000000000000, #298 ) ;
#238 = DATE_AND_TIME ( #144, #223 ) ;
#239 = ORIENTED_EDGE ( 'NONE', *, *, #103, .T. ) ;
#240 = VERTEX_POINT ( 'NONE', #300 ) ;
#241 = PRODUCT_DEFINITION ( 'UNKNOWN', '', #29, #169 ) ;
#242 = VECTOR ( 'NONE', #194, 1000.000000000000114 ) ;
#243 = PERSON_AND_ORGANIZATION ( #88, #52 ) ;
#244 = EDGE_LOOP ( 'NONE', ( #54, #206, #101 ) ) ;
#245 = VERTEX_POINT ( 'NONE', #83 ) ;
#246 = CALENDAR_DATE ( 2021, 5, 1 ) ;
#247 = VECTOR ( 'NONE', #222, 1000.000000000000000 ) ;
#248 = CARTESIAN_POINT ( 'NONE',  ( 12.69999999999999574, 12.69999999999999574, 12.69999999999999929 ) ) ;
#249 = PERSON_AND_ORGANIZATION ( #88, #52 ) ;
#250 = CARTESIAN_POINT ( 'NONE',  ( 12.69999999999999574, 12.69999999999999574, 12.69999999999999929 ) ) ;
#251 = CC_DESIGN_APPROVAL ( #205, ( #29 ) ) ;
#252 = APPROVAL_ROLE ( '' ) ;
#253 = ADVANCED_FACE ( 'NONE', ( #158 ), #46, .F. ) ;
#254 = CARTESIAN_POINT ( 'NONE',  ( -12.69999999999999574, -12.69999999999999396, 12.69999999999999929 ) ) ;
#255 = CC_DESIGN_PERSON_AND_ORGANIZATION_ASSIGNMENT ( #243, #276, ( #29 ) ) ;
#256 = CARTESIAN_POINT ( 'NONE',  ( -12.69999999999999751, -12.69999999999999929, 12.69999999999999929 ) ) ;
#257 = APPROVAL_PERSON_ORGANIZATION ( #320, #116, #252 ) ;
#258 = ORIENTED_EDGE ( 'NONE', *, *, #294, .F. ) ;
#259 = VECTOR ( 'NONE', #288, 1000.000000000000000 ) ;
#260 = CARTESIAN_POINT ( 'NONE',  ( 12.69999999999999574, 12.69999999999999574, 12.69999999999999929 ) ) ;
#261 = VECTOR ( 'NONE', #30, 999.9999999999998863 ) ;
#262 = ADVANCED_FACE ( 'NONE', ( #82 ), #182, .F. ) ;
#263 = CARTESIAN_POINT ( 'NONE',  ( 0.000000000000000000, 0.000000000000000000, 12.69999999999999929 ) ) ;
#264 = ORIENTED_EDGE ( 'NONE', *, *, #121, .F. ) ;
#265 = EDGE_LOOP ( 'NONE', ( #239, #19, #145, #136 ) ) ;
#266 = DIRECTION ( 'NONE',  ( 0.7071067811865474617, 0.7071067811865474617, 0.000000000000000000 ) ) ;
#267 = EDGE_CURVE ( 'NONE', #281, #150, #183, .T. ) ;
#268 = LINE ( 'NONE', #184, #143 ) ;
#269 = VECTOR ( 'NONE', #134, 1000.000000000000000 ) ;
#270 = FACE_OUTER_BOUND ( 'NONE', #10, .T. ) ;
#271 = DATE_TIME_ROLE ( 'creation_date' ) ;
#272 = APPROVAL_PERSON_ORGANIZATION ( #36, #75, #33 ) ;
#273 = LINE ( 'NONE', #151, #168 ) ;
#274 = ORIENTED_EDGE ( 'NONE', *, *, #135, .F. ) ;
#275 = LINE ( 'NONE', #27, #43 ) ;
#276 = PERSON_AND_ORGANIZATION_ROLE ( 'design_supplier' ) ;
#277 = LINE ( 'NONE', #254, #269 ) ;
#278 = PLANE ( 'NONE',  #186 ) ;
#279 = DIRECTION ( 'NONE',  ( 0.000000000000000000, 0.000000000000000000, -1.000000000000000000 ) ) ;
#280 = EDGE_CURVE ( 'NONE', #232, #236, #275, .T. ) ;
#281 = VERTEX_POINT ( 'NONE', #28 ) ;
#282 = VECTOR ( 'NONE', #50, 1000.000000000000000 ) ;
#283 = ORIENTED_EDGE ( 'NONE', *, *, #213, .F. ) ;
#284 = DIRECTION ( 'NONE',  ( 1.000000000000000000, -2.220446049250312588E-16, 0.000000000000000000 ) ) ;
#285 = EDGE_LOOP ( 'NONE', ( #15, #264, #89, #12 ) ) ;
#286 = VECTOR ( 'NONE', #100, 1000.000000000000000 ) ;
#287 = EDGE_LOOP ( 'NONE', ( #141, #215, #31 ) ) ;
#288 = DIRECTION ( 'NONE',  ( 1.000000000000000000, 0.000000000000000000, 0.000000000000000000 ) ) ;
#289 = DIRECTION ( 'NONE',  ( -0.000000000000000000, 0.000000000000000000, 1.000000000000000000 ) ) ;
#290 = CC_DESIGN_DATE_AND_TIME_ASSIGNMENT ( #130, #78, ( #56 ) ) ;
#291 = ADVANCED_FACE ( 'NONE', ( #2 ), #278, .F. ) ;
#292 = FACE_OUTER_BOUND ( 'NONE', #188, .T. ) ;
#293 = DATE_AND_TIME ( #246, #237 ) ;
#294 = EDGE_CURVE ( 'NONE', #314, #315, #231, .T. ) ;
#295 = CARTESIAN_POINT ( 'NONE',  ( 12.69999999999999929, -12.69999999999999929, -12.69999999999999929 ) ) ;
#296 = DIRECTION ( 'NONE',  ( -0.000000000000000000, -0.000000000000000000, -1.000000000000000000 ) ) ;
#297 = EDGE_CURVE ( 'NONE', #57, #164, #166, .T. ) ;
#298 = COORDINATED_UNIVERSAL_TIME_OFFSET ( 8, 0, .AHEAD. ) ;
#299 = PRODUCT_DEFINITION_SHAPE ( 'NONE', 'NONE',  #241 ) ;
#300 = CARTESIAN_POINT ( 'NONE',  ( -12.69999999999999751, -12.69999999999999929, -12.69999999999999929 ) ) ;
#301 = ADVANCED_FACE ( 'NONE', ( #63 ), #104, .T. ) ;
#302 = DIRECTION ( 'NONE',  ( -0.000000000000000000, -0.000000000000000000, -1.000000000000000000 ) ) ;
#303 = CARTESIAN_POINT ( 'NONE',  ( 0.000000000000000000, 0.000000000000000000, -12.69999999999999929 ) ) ;
#304 = LOCAL_TIME ( 10, 11, 29.00000000000000000, #1 ) ;
#305 = ADVANCED_BREP_SHAPE_REPRESENTATION ( 'BK7-BPBSC-25.4-900-1200', ( #70, #73, #156 ), #207 ) ;
#306 = DIRECTION ( 'NONE',  ( 0.000000000000000000, 1.000000000000000000, 0.000000000000000000 ) ) ;
#307 = VECTOR ( 'NONE', #279, 1000.000000000000000 ) ;
#308 = CC_DESIGN_PERSON_AND_ORGANIZATION_ASSIGNMENT ( #152, #20, ( #56 ) ) ;
#309 = ORIENTED_EDGE ( 'NONE', *, *, #297, .T. ) ;
#310 = EDGE_CURVE ( 'NONE', #164, #240, #147, .T. ) ;
#311 = CARTESIAN_POINT ( 'NONE',  ( -12.70000000000000284, 12.70000000000000284, 12.69999999999999929 ) ) ;
#312 = ORIENTED_EDGE ( 'NONE', *, *, #84, .T. ) ;
#313 = DIRECTION ( 'NONE',  ( 1.000000000000000000, 0.000000000000000000, 0.000000000000000000 ) ) ;
#314 = VERTEX_POINT ( 'NONE', #60 ) ;
#315 = VERTEX_POINT ( 'NONE', #192 ) ;
#316 = PERSON_AND_ORGANIZATION_ROLE ( 'creator' ) ;
#317 = PLANE ( 'NONE',  #18 ) ;
#318 = CALENDAR_DATE ( 2021, 5, 1 ) ;
#319 = ORIENTED_EDGE ( 'NONE', *, *, #157, .T. ) ;
#320 = PERSON_AND_ORGANIZATION ( #88, #52 ) ;
#321 = ORIENTED_EDGE ( 'NONE', *, *, #310, .T. ) ;
ENDSEC;
END-ISO-10303-21;
